0
SECTION
2
HEADER
9
$INSUNITS
70
4
9
$ACADVER
1
AC1014
9
$HANDSEED
5
FFFF
0
ENDSEC
0
SECTION
2
TABLES
0
TABLE
2
VPORT
5
8
100
AcDbSymbolTable
0
ENDTAB
0
TABLE
2
LTYPE
5
5
100
AcDbSymbolTable
0
LTYPE
5
14
100
AcDbSymbolTableRecord
100
AcDbLinetypeTableRecord
2
BYBLOCK
70
0
0
LTYPE
5
15
100
AcDbSymbolTableRecord
100
AcDbLinetypeTableRecord
2
BYLAYER
70
0
0
ENDTAB
0
TABLE
2
LAYER
5
2
100
AcDbSymbolTable
70
2
0
LAYER
5
50
100
AcDbSymbolTableRecord
100
AcDbLayerTableRecord
2
0
70
0
6
CONTINUOUS
0
ENDTAB
0
TABLE
2
STYLE
5
3
100
AcDbSymbolTable
70
1
0
STYLE
5
11
100
AcDbSymbolTableRecord
100
AcDbTextStyleTableRecord
2
STANDARD
70
0
0
ENDTAB
0
TABLE
2
VIEW
5
6
100
AcDbSymbolTable
70
0
0
ENDTAB
0
TABLE
2
UCS
5
7
100
AcDbSymbolTable
70
0
0
ENDTAB
0
TABLE
2
APPID
5
9
100
AcDbSymbolTable
70
2
0
APPID
5
12
100
AcDbSymbolTableRecord
100
AcDbRegAppTableRecord
2
ACAD
70
0
0
ENDTAB
0
TABLE
2
DIMSTYLE
5
A
100
AcDbSymbolTable
70
1
0
ENDTAB
0
TABLE
2
BLOCK_RECORD
5
1
100
AcDbSymbolTable
70
1
0
BLOCK_RECORD
5
1F
100
AcDbSymbolTableRecord
100
AcDbBlockTableRecord
2
*MODEL_SPACE
0
BLOCK_RECORD
5
1B
100
AcDbSymbolTableRecord
100
AcDbBlockTableRecord
2
*PAPER_SPACE
0
ENDTAB
0
ENDSEC
0
SECTION
2
BLOCKS
0
BLOCK
5
20
100
AcDbEntity
100
AcDbBlockBegin
2
*MODEL_SPACE
0
ENDBLK
5
21
100
AcDbEntity
100
AcDbBlockEnd
0
BLOCK
5
1C
100
AcDbEntity
100
AcDbBlockBegin
2
*PAPER_SPACE
0
ENDBLK
5
1D
100
AcDbEntity
100
AcDbBlockEnd
0
ENDSEC
0
SECTION
2
ENTITIES
0
LWPOLYLINE
5
100
100
AcDbEntity
8
0
100
AcDbPolyline
90
20
70
1
43
0.0
10
-605.5
20
174.50000000000003
42
-0.13165249758739367
10
-604.76313972081459
20
177.25000000000011
42
-0.16948896990419082
10
-605.43989416021202
20
180.81089550849259
42
-0.36170859876844752
10
-107.56818540542866
20
625.18887877637849
42
0.40412933390799172
10
-95.499999999999972
20
637.68141799608543
10
-95.5
20
654.49999999999977
42
-0.99999999999999989
10
-84.5
20
654.5
10
-84.499999999999574
20
625.5
42
-0.13165249758739772
10
-85.236860279185308
20
622.74999999999955
42
-0.5770595058655722
10
-89.995201801724889
20
614.50000209297377
42
0.3712594256998441
10
-594.56010583978798
20
179.18910449150758
42
-0.094182956974236648
10
-595.23686027918575
20
177.24999999999989
42
-0.13165249758740846
10
-594.5
20
174.50000000000003
10
-594.5
20
135.49999999999997
42
-0.55435290651697799
10
-602.41170462085609
20
130.55695632006501
42
-0.13165249758738756
10
-605.10372933738563
20
129.63042191885049
10
-672.93604939213424
20
124.89627066261436
42
-0.99999999999999989
10
-673.70189813589832
20
135.86957808114948
10
-615.73415125623603
20
139.9152613408408
42
0.39394922815083916
10
-605.5
20
150.88856875937566
0
LWPOLYLINE
5
101
100
AcDbEntity
8
0
100
AcDbPolyline
90
4
70
1
43
0.0
10
-571.38776855283163
20
150.00000000000003
10
-571.38776855283152
20
167.60000000000002
10
-588.98776855283154
20
167.60000000000002
10
-588.98776855283165
20
150
0
LWPOLYLINE
5
102
100
AcDbEntity
8
0
100
AcDbPolyline
90
4
70
1
43
0.0
10
-651.38666667249549
20
38.986666668039298
10
-668.9866666724954
20
38.986666668039277
10
-668.9866666724954
20
21.386666668039283
10
-651.38666667249527
20
21.3866666680393
0
LWPOLYLINE
5
103
100
AcDbEntity
8
0
100
AcDbPolyline
90
4
70
1
43
0.0
10
-651.38666667249527
20
61.386666668039283
10
-651.38666667249549
20
78.986666668039305
10
-668.9866666724954
20
78.986666668039305
10
-668.9866666724954
20
61.386666668039283
0
LWPOLYLINE
5
104
100
AcDbEntity
8
0
100
AcDbPolyline
90
4
70
1
43
0.0
10
-451.00856868238901
20
585.56500723344698
10
-440.91362340260923
20
571.14793125396159
10
-426.49654742312379
20
581.24287653373926
10
-436.59149270290231
20
595.65995251322522
0
LWPOLYLINE
5
105
100
AcDbEntity
8
0
100
AcDbPolyline
90
4
70
1
43
0.0
10
-662.4128750112435
20
303.69850512353418
10
-645.87428488541082
20
297.67895060100415
10
-639.85473036287954
20
314.21754072683478
10
-656.39332048871154
20
320.23709524936612
0
LWPOLYLINE
5
106
100
AcDbEntity
8
0
100
AcDbPolyline
90
4
70
1
43
0.0
10
-611.7016112163783
20
411.44684122245513
10
-596.72195778148603
20
402.20725340856814
10
-587.48236996759852
20
417.18690684345847
10
-602.46202340248965
20
426.42649465734627
0
LWPOLYLINE
5
107
100
AcDbEntity
8
0
100
AcDbPolyline
90
4
70
1
43
0.0
10
-540.2494036522578
20
506.71445503728876
10
-527.44762756057094
20
494.63660221080033
10
-515.36977473488048
20
507.43837830163869
10
-528.17155082576755
20
519.51623112897414
0
LWPOLYLINE
5
108
100
AcDbEntity
8
0
100
AcDbPolyline
90
4
70
1
43
0.0
10
-347.66642663397295
20
644.74049104729875
10
-340.69542275168232
20
628.57988756620659
10
-324.53481927059045
20
635.55089144849512
10
-331.50582315287977
20
651.71149492958762
0
LWPOLYLINE
5
109
100
AcDbEntity
8
0
100
AcDbPolyline
90
4
70
1
43
0.0
10
-234.49294630728232
20
681.79584907421042
10
-230.93391703445363
20
664.55945413218672
10
-213.69752209116427
20
668.11848340418055
10
-217.25655136420846
20
685.35487834725382
0
LWPOLYLINE
5
110
100
AcDbEntity
8
0
100
AcDbPolyline
90
4
70
1
43
0.0
10
-98.564315174673069
20
677.60000000000002
10
-98.564315174673567
20
695.20000000000005
10
-116.16431517467355
20
695.20000000000005
10
-116.16431517467163
20
677.60000000000002
0
LWPOLYLINE
5
111
100
AcDbEntity
8
0
100
AcDbPolyline
90
4
70
1
43
0.0
10
-119.38403786922123
20
650
10
-101.78403786922132
20
650
10
-101.7840378692209
20
667.60000000000002
10
-119.38403786922088
20
667.60000000000002
0
LWPOLYLINE
5
112
100
AcDbEntity
8
0
100
AcDbPolyline
90
4
70
1
43
0.0
10
-611.38776855283163
20
150.00000000000003
10
-611.38776855283152
20
167.60000000000002
10
-628.98776855283154
20
167.60000000000002
10
-628.98776855283165
20
150
0
LWPOLYLINE
5
113
100
AcDbEntity
8
0
100
AcDbPolyline
90
4
70
1
43
0.0
10
-651.38666667249527
20
101.38666666803928
10
-651.38666667249549
20
118.98666666803931
10
-668.9866666724954
20
118.98666666803928
10
-668.9866666724954
20
101.38666666803928
0
LWPOLYLINE
5
114
100
AcDbEntity
8
0
100
AcDbPolyline
90
4
70
1
43
0.0
10
-451.38776855283169
20
150.00000000000003
10
-451.38776855283152
20
167.60000000000002
10
-468.9877685528316
20
167.60000000000002
10
-468.98776855283165
20
150
0
LWPOLYLINE
5
115
100
AcDbEntity
8
0
100
AcDbPolyline
90
4
70
1
43
0.0
10
-491.38776855283169
20
150.00000000000003
10
-491.38776855283152
20
167.60000000000002
10
-508.9877685528316
20
167.60000000000002
10
-508.98776855283165
20
150
0
LWPOLYLINE
5
116
100
AcDbEntity
8
0
100
AcDbPolyline
90
4
70
1
43
0.0
10
-79.384037869221302
20
650
10
-61.784037869221322
20
650
10
-61.784037869220896
20
667.60000000000002
10
-79.384037869220876
20
667.60000000000002
0
LWPOLYLINE
5
117
100
AcDbEntity
8
0
100
AcDbPolyline
90
4
70
1
43
0.0
10
-651.38666667249527
20
141.38666666803928
10
-651.38666667249549
20
158.98666666803931
10
-668.9866666724954
20
158.98666666803928
10
-668.9866666724954
20
141.38666666803928
0
LWPOLYLINE
5
118
100
AcDbEntity
8
0
100
AcDbPolyline
90
4
70
1
43
0.0
10
-21.784037869221322
20
650
10
-21.784037869220896
20
667.60000000000002
10
-39.384037869220876
20
667.60000000000002
10
-39.384037869221302
20
650
0
LWPOLYLINE
5
119
100
AcDbEntity
8
0
100
AcDbPolyline
90
4
70
1
43
0.0
10
-651.38666667249527
20
181.38666666803931
10
-651.38666667249549
20
198.98666666803931
10
-668.9866666724954
20
198.98666666803928
10
-668.9866666724954
20
181.38666666803931
0
LWPOLYLINE
5
120
100
AcDbEntity
8
0
100
AcDbPolyline
90
4
70
1
43
0.0
10
-531.38776855283163
20
150.00000000000003
10
-531.38776855283152
20
167.60000000000002
10
-548.98776855283154
20
167.60000000000002
10
-548.98776855283165
20
150
0
LWPOLYLINE
5
121
100
AcDbEntity
8
0
100
AcDbPolyline
90
11
70
1
43
0.0
10
-699.99989157753271
20
-0.38960421288141589
42
-0.52552799045596743
10
-1.7840378692211978
20
699.99772657377048
10
-1.7840378692215353
20
579.99725620806271
42
0.098384135435650305
10
-215.09265330958863
20
547.6910992049244
42
0.31601862701330197
10
-429.73616149554414
20
242.00098697605927
10
-429.73616149554408
20
167.49999999997297
42
0.41421356237308626
10
-342.2361614955737
20
80.000000000005258
10
-75.000000000000014
20
79.999999999999986
42
-0.41421356237309553
10
0
20
5.0000000000000355
10
0
20
0
10
-580
20
0
0
ENDSEC
0
SECTION
2
OBJECTS
0
DICTIONARY
5
C
100
AcDbDictionary
3
ACAD_GROUP
350
D
3
ACAD_MLINESTYLE
350
17
0
DICTIONARY
5
D
100
AcDbDictionary
0
DICTIONARY
5
1A
330
C
100
AcDbDictionary
0
DICTIONARY
5
17
100
AcDbDictionary
0
ENDSEC
0
EOF
